999
"DXF R12 Output" (www.mydxf.blogspot.com)
 0 
SECTION
 2 
HEADER
 9 
$ACADVER
 1 
AC1009
 9 
$EXTMIN
 10 
 0 
 20 
 0 
 9 
$EXTMAX
 10 
 8.5 
 20 
 11 
 0 
ENDSEC
 0 
SECTION
 2 
ENTITIES
0
LINE
8
Shortest descent
10
91.006800
20
23.615200
11
90.398732
21
23.488933
0
LINE
8
Shortest descent
10
90.398732
20
23.488933
11
89.750380
21
23.509959
0
LINE
8
Shortest descent
10
89.750380
20
23.509959
11
87.938210
21
23.627850
0
LINE
8
Shortest descent
10
87.938210
20
23.627850
11
86.129910
21
23.808338
0
LINE
8
Shortest descent
10
86.129910
20
23.808338
11
82.320932
21
24.155424
0
LINE
8
Shortest descent
10
82.320932
20
24.155424
11
78.529144
21
24.663235
0
LINE
8
Shortest descent
10
78.529144
20
24.663235
11
71.044710
21
26.081838
0
LINE
8
Shortest descent
10
71.044710
20
26.081838
11
66.971052
21
27.071159
0
LINE
8
Shortest descent
10
66.971052
20
27.071159
11
62.971728
21
28.205937
0
LINE
8
Shortest descent
10
62.971728
20
28.205937
11
59.050839
21
29.483402
0
LINE
8
Shortest descent
10
59.050839
20
29.483402
11
55.212485
21
30.900783
0
LINE
8
Shortest descent
10
55.212485
20
30.900783
11
51.460769
21
32.455309
0
LINE
8
Shortest descent
10
51.460769
20
32.455309
11
47.799791
21
34.144208
0
LINE
8
Shortest descent
10
47.799791
20
34.144208
11
44.233651
21
35.964709
0
LINE
8
Shortest descent
10
44.233651
20
35.964709
11
40.766451
21
37.914042
0
LINE
8
Shortest descent
10
40.766451
20
37.914042
11
37.402292
21
39.989435
0
LINE
8
Shortest descent
10
37.402292
20
39.989435
11
34.145275
21
42.188117
0
LINE
8
Shortest descent
10
34.145275
20
42.188117
11
30.999500
21
44.507318
0
LINE
8
Shortest descent
10
30.999500
20
44.507318
11
27.969069
21
46.944265
0
LINE
8
Shortest descent
10
27.969069
20
46.944265
11
25.058082
21
49.496188
0
LINE
8
Shortest descent
10
25.058082
20
49.496188
11
22.270641
21
52.160315
0
LINE
8
Shortest descent
10
22.270641
20
52.160315
11
19.610847
21
54.933876
0
LINE
8
Shortest descent
10
19.610847
20
54.933876
11
17.082800
21
57.814100
0
LINE
8
Shortest descent
10
17.082800
20
57.814100
11
14.134405
21
61.649734
0
LINE
8
Shortest descent
10
14.134405
20
61.649734
11
11.535315
21
65.719350
0
LINE
8
Shortest descent
10
11.535315
20
65.719350
11
9.348223
21
69.957941
0
LINE
8
Shortest descent
10
9.348223
20
69.957941
11
7.635820
21
74.300500
0
LINE
8
Shortest descent
10
7.635820
20
74.300500
11
6.755198
21
77.474910
0
LINE
8
Shortest descent
10
6.755198
20
77.474910
11
6.511060
21
78.396518
0
LINE
8
Shortest descent
10
6.511060
20
78.396518
11
6.426380
21
79.137318
0
LINE
8
Shortest descent
10
3.985100
20
79.135600
11
3.985100
21
23.605400
0
LINE
8
Shortest descent
10
6.426380
20
79.137400
11
3.939410
21
79.137400
0
LINE
8
Large Dip
10
6.426380
20
79.137400
11
6.641931
21
77.227752
0
LINE
8
Large Dip
10
6.641931
20
77.227752
11
7.364527
21
72.093322
0
LINE
8
Large Dip
10
7.364527
20
72.093322
11
8.708078
21
64.625881
0
LINE
8
Large Dip
10
8.708078
20
64.625881
11
10.786496
21
55.717200
0
LINE
8
Large Dip
10
10.786496
20
55.717200
11
12.136878
21
51.001073
0
LINE
8
Large Dip
10
12.136878
20
51.001073
11
13.713694
21
46.259050
0
LINE
8
Large Dip
10
13.713694
20
46.259050
11
15.531182
21
41.602603
0
LINE
8
Large Dip
10
15.531182
20
41.602603
11
17.603583
21
37.143203
0
LINE
8
Large Dip
10
17.603583
20
37.143203
11
19.945134
21
32.992321
0
LINE
8
Large Dip
10
19.945134
20
32.992321
11
22.570074
21
29.261429
0
LINE
8
Large Dip
10
22.570074
20
29.261429
11
23.993265
21
27.588314
0
LINE
8
Large Dip
10
23.993265
20
27.588314
11
25.492643
21
26.061998
0
LINE
8
Large Dip
10
25.492643
20
26.061998
11
27.069988
21
24.696416
0
LINE
8
Large Dip
10
27.069988
20
24.696416
11
28.727080
21
23.505500
0
LINE
8
Large Dip
10
28.727080
20
23.505500
11
30.467933
21
22.494075
0
LINE
8
Large Dip
10
30.467933
20
22.494075
11
32.352577
21
21.610820
0
LINE
8
Large Dip
10
32.352577
20
21.610820
11
34.367958
21
20.849434
0
LINE
8
Large Dip
10
34.367958
20
20.849434
11
36.501022
21
20.203618
0
LINE
8
Large Dip
10
36.501022
20
20.203618
11
41.067982
21
19.233499
0
LINE
8
Large Dip
10
41.067982
20
19.233499
11
45.949027
21
18.650065
0
LINE
8
Large Dip
10
45.949027
20
18.650065
11
51.039723
21
18.402920
0
LINE
8
Large Dip
10
51.039723
20
18.402920
11
56.235640
21
18.441666
0
LINE
8
Large Dip
10
56.235640
20
18.441666
11
61.432344
21
18.715907
0
LINE
8
Large Dip
10
61.432344
20
18.715907
11
66.525405
21
19.175246
0
LINE
8
Large Dip
10
66.525405
20
19.175246
11
75.982867
21
20.447631
0
LINE
8
Large Dip
10
75.982867
20
20.447631
11
83.772571
21
21.855646
0
LINE
8
Large Dip
10
83.772571
20
21.855646
11
91.006880
21
23.465868
0
LINE
8
Large Dip
10
6.426380
20
79.137400
11
3.939410
21
79.137400
0
LINE
8
Large Dip
10
3.985100
20
79.135600
11
3.985100
21
23.605400
0
LINE
8
straight line
10
6.426380
20
79.137400
11
3.939410
21
79.137400
0
LINE
8
straight line
10
3.985100
20
79.135600
11
3.985100
21
23.605400
0
LINE
8
straight line
10
6.426380
20
79.137400
11
91.006800
21
23.465900
 0 
ENDSEC
 0 
EOF